  0
SECTION
  2
HEADER
  9
$ACADVER
  1
AC1015
  9
$ACADMAINTVER
 70
     6
  9
$DWGCODEPAGE
  3
ANSI_1254
  9
$INSBASE
 10
0.0
 20
0.0
 30
0.0
  9
$EXTMIN
 10
0.0
 20
0.0
 30
0.0
  9
$EXTMAX
 10
279.4
 20
215.9
 30
0.0
  9
$LIMMIN
 10
0.0
 20
0.0
  9
$LIMMAX
 10
279.4
 20
215.9
  9
$ORTHOMODE
 70
     0
  9
$REGENMODE
 70
     1
  9
$FILLMODE
 70
     1
  9
$QTEXTMODE
 70
     0
  9
$MIRRTEXT
 70
     1
  9
$LTSCALE
 40
1.0
  9
$ATTMODE
 70
     1
  9
$TEXTSIZE
 40
3.5
  9
$TRACEWID
 40
1.0
  9
$TEXTSTYLE
  7
Standard
  9
$CLAYER
  8
0
  9
$CELTYPE
  6
ByLayer
  9
$CECOLOR
 62
   256
  9
$CELTSCALE
 40
1.0
  9
$DISPSILH
 70
     0
  9
$DIMSCALE
 40
1.0
  9
$DIMASZ
 40
3.5
  9
$DIMEXO
 40
1.0
  9
$DIMDLI
 40
3.75
  9
$DIMRND
 40
0.0
  9
$DIMDLE
 40
0.0
  9
$DIMEXE
 40
1.0
  9
$DIMTP
 40
0.0
  9
$DIMTM
 40
0.0
  9
$DIMTXT
 40
3.5
  9
$DIMCEN
 40
2.5
  9
$DIMTSZ
 40
0.0
  9
$DIMTOL
 70
     0
  9
$DIMLIM
 70
     0
  9
$DIMTIH
 70
     1
  9
$DIMTOH
 70
     1
  9
$DIMSE1
 70
     0
  9
$DIMSE2
 70
     0
  9
$DIMTAD
 70
     1
  9
$DIMZIN
 70
     0
  9
$DIMBLK
  1

  9
$DIMASO
 70
     1
  9
$DIMSHO
 70
     1
  9
$DIMPOST
  1

  9
$DIMAPOST
  1

  9
$DIMALT
 70
     0
  9
$DIMALTD
 70
     3
  9
$DIMALTF
 40
0.0393700787
  9
$DIMLFAC
 40
1.0
  9
$DIMTOFL
 70
     1
  9
$DIMTVP
 40
0.0
  9
$DIMTIX
 70
     0
  9
$DIMSOXD
 70
     0
  9
$DIMSAH
 70
     0
  9
$DIMBLK1
  1

  9
$DIMBLK2
  1

  9
$DIMSTYLE
  2
ISO-25
  9
$DIMCLRD
 70
     0
  9
$DIMCLRE
 70
     0
  9
$DIMCLRT
 70
     0
  9
$DIMTFAC
 40
1.0
  9
$DIMGAP
 40
1.524
  9
$DIMJUST
 70
     0
  9
$DIMSD1
 70
     0
  9
$DIMSD2
 70
     0
  9
$DIMTOLJ
 70
     0
  9
$DIMTZIN
 70
     0
  9
$DIMALTZ
 70
     0
  9
$DIMALTTZ
 70
     0
  9
$DIMUPT
 70
     0
  9
$DIMDEC
 70
     2
  9
$DIMTDEC
 70
     2
  9
$DIMALTU
 70
     2
  9
$DIMALTTD
 70
     3
  9
$DIMTXSTY
  7
Standard
  9
$DIMAUNIT
 70
     0
  9
$DIMADEC
 70
     2
  9
$DIMALTRND
 40
0.0
  9
$DIMAZIN
 70
     0
  9
$DIMDSEP
 70
    44
  9
$DIMATFIT
 70
     3
  9
$DIMFRAC
 70
     0
  9
$DIMLDRBLK
  1

  9
$DIMLUNIT
 70
     2
  9
$DIMLWD
 70
    -2
  9
$DIMLWE
 70
    -2
  9
$DIMTMOVE
 70
     0
  9
$LUNITS
 70
     2
  9
$LUPREC
 70
     2
  9
$SKETCHINC
 40
1.0
  9
$FILLETRAD
 40
10.0
  9
$AUNITS
 70
     0
  9
$AUPREC
 70
     2
  9
$MENU
  1
.
  9
$ELEVATION
 40
0.0
  9
$PELEVATION
 40
0.0
  9
$THICKNESS
 40
0.0
  9
$LIMCHECK
 70
     0
  9
$CHAMFERA
 40
0.0
  9
$CHAMFERB
 40
0.0
  9
$CHAMFERC
 40
0.0
  9
$CHAMFERD
 40
0.0
  9
$SKPOLY
 70
     0
  9
$TDCREATE
 40
2458985.690404444
  9
$TDUCREATE
 40
2458985.565404444
  9
$TDUPDATE
 40
2458985.690404792
  9
$TDUUPDATE
 40
2458985.565404792
  9
$TDINDWG
 40
0.0000000116
  9
$TDUSRTIMER
 40
0.0000000116
  9
$USRTIMER
 70
     1
  9
$ANGBASE
 50
0.0
  9
$ANGDIR
 70
     0
  9
$PDMODE
 70
     0
  9
$PDSIZE
 40
-1.0
  9
$PLINEWID
 40
0.0
  9
$SPLFRAME
 70
     0
  9
$SPLINETYPE
 70
     6
  9
$SPLINESEGS
 70
     8
  9
$HANDSEED
  5
CB
  9
$SURFTAB1
 70
     6
  9
$SURFTAB2
 70
     6
  9
$SURFTYPE
 70
     6
  9
$SURFU
 70
     6
  9
$SURFV
 70
     6
  9
$UCSBASE
  2

  9
$UCSNAME
  2

  9
$UCSORG
 10
0.0
 20
0.0
 30
0.0
  9
$UCSXDIR
 10
1.0
 20
0.0
 30
0.0
  9
$UCSYDIR
 10
0.0
 20
1.0
 30
0.0
  9
$UCSORTHOREF
  2

  9
$UCSORTHOVIEW
 70
     0
  9
$UCSORGTOP
 10
0.0
 20
0.0
 30
0.0
  9
$UCSORGBOTTOM
 10
0.0
 20
0.0
 30
0.0
  9
$UCSORGLEFT
 10
0.0
 20
0.0
 30
0.0
  9
$UCSORGRIGHT
 10
0.0
 20
0.0
 30
0.0
  9
$UCSORGFRONT
 10
0.0
 20
0.0
 30
0.0
  9
$UCSORGBACK
 10
0.0
 20
0.0
 30
0.0
  9
$PUCSBASE
  2

  9
$PUCSNAME
  2

  9
$PUCSORG
 10
0.0
 20
0.0
 30
0.0
  9
$PUCSXDIR
 10
1.0
 20
0.0
 30
0.0
  9
$PUCSYDIR
 10
0.0
 20
1.0
 30
0.0
  9
$PUCSORTHOREF
  2

  9
$PUCSORTHOVIEW
 70
     0
  9
$PUCSORGTOP
 10
0.0
 20
0.0
 30
0.0
  9
$PUCSORGBOTTOM
 10
0.0
 20
0.0
 30
0.0
  9
$PUCSORGLEFT
 10
0.0
 20
0.0
 30
0.0
  9
$PUCSORGRIGHT
 10
0.0
 20
0.0
 30
0.0
  9
$PUCSORGFRONT
 10
0.0
 20
0.0
 30
0.0
  9
$PUCSORGBACK
 10
0.0
 20
0.0
 30
0.0
  9
$USERI1
 70
     0
  9
$USERI2
 70
     0
  9
$USERI3
 70
     0
  9
$USERI4
 70
     0
  9
$USERI5
 70
     0
  9
$USERR1
 40
0.0
  9
$USERR2
 40
0.0
  9
$USERR3
 40
0.0
  9
$USERR4
 40
0.0
  9
$USERR5
 40
0.0
  9
$WORLDVIEW
 70
     1
  9
$SHADEDGE
 70
     3
  9
$SHADEDIF
 70
    70
  9
$TILEMODE
 70
     1
  9
$MAXACTVP
 70
    64
  9
$PINSBASE
 10
0.0
 20
0.0
 30
0.0
  9
$PLIMCHECK
 70
     0
  9
$PEXTMIN
 10
1.0000000000E+20
 20
1.0000000000E+20
 30
1.0000000000E+20
  9
$PEXTMAX
 10
-1.0000000000E+20
 20
-1.0000000000E+20
 30
-1.0000000000E+20
  9
$PLIMMIN
 10
0.0
 20
0.0
  9
$PLIMMAX
 10
420.0
 20
297.0
  9
$UNITMODE
 70
     0
  9
$VISRETAIN
 70
     1
  9
$PLINEGEN
 70
     0
  9
$PSLTSCALE
 70
     1
  9
$TREEDEPTH
 70
  3020
  9
$CMLSTYLE
  2
Standard
  9
$CMLJUST
 70
     0
  9
$CMLSCALE
 40
20.0
  9
$PROXYGRAPHICS
 70
     1
  9
$MEASUREMENT
 70
     1
  9
$CELWEIGHT
370
    -1
  9
$ENDCAPS
280
     0
  9
$JOINSTYLE
280
     0
  9
$LWDISPLAY
290
     1
  9
$INSUNITS
 70
     4
  9
$HYPERLINKBASE
  1

  9
$STYLESHEET
  1

  9
$XEDIT
290
     1
  9
$CEPSNTYPE
380
     0
  9
$PSTYLEMODE
290
     1
  9
$FINGERPRINTGUID
  2
{08f54b62-defa-4ac4-ab6e-3f2785cc6e85}
  9
$VERSIONGUID
  2
{FAEB1C32-E019-11D5-929B-00C0DF256EC4}
  9
$EXTNAMES
290
     1
  9
$PSVPSCALE
 40
0.0
  9
$OLESTARTUP
290
     0
  0
ENDSEC
  0
SECTION
  2
CLASSES
  0
CLASS
  1
ACDBDICTIONARYWDFLT
  2
AcDbDictionaryWithDefault
  3
ObjectDBX Classes
 90
        0
280
     0
281
     0
  0
CLASS
  1
VISUALSTYLE
  2
AcDbVisualStyle
  3
ObjectDBX Classes
 90
     4095
280
     0
281
     0
  0
CLASS
  1
MATERIAL
  2
AcDbMaterial
  3
ObjectDBX Classes
 90
     1153
280
     0
281
     0
  0
CLASS
  1
SCALE
  2
AcDbScale
  3
ObjectDBX Classes
 90
     1153
280
     0
281
     0
  0
CLASS
  1
TABLESTYLE
  2
AcDbTableStyle
  3
ObjectDBX Classes
 90
     4095
280
     0
281
     0
  0
CLASS
  1
MLEADERSTYLE
  2
AcDbMLeaderStyle
  3
ACDB_MLEADERSTYLE_CLASS
 90
     4095
280
     0
281
     0
  0
CLASS
  1
SUN
  2
AcDbSun
  3
SCENEOE
 90
     1153
280
     0
281
     0
  0
CLASS
  1
ACDBPLACEHOLDER
  2
AcDbPlaceHolder
  3
ObjectDBX Classes
 90
        0
280
     0
281
     0
  0
CLASS
  1
LAYOUT
  2
AcDbLayout
  3
ObjectDBX Classes
 90
        0
280
     0
281
     0
  0
ENDSEC
  0
SECTION
  2
TABLES
  0
TABLE
  2
VPORT
  5
8
330
0
100
AcDbSymbolTable
 70
     1
  0
VPORT
  5
29
330
8
100
AcDbSymbolTableRecord
100
AcDbViewportTableRecord
  2
*Active
 70
     0
 10
0.0
 20
0.0
 11
1.0
 21
1.0
 12
139.7
 22
107.95
 13
0.0
 23
0.0
 14
10.0
 24
10.0
 15
10.0
 25
10.0
 16
0.0
 26
0.0
 36
1.0
 17
0.0
 27
0.0
 37
0.0
 40
215.9
 41
1.2941176471
 42
50.0
 43
0.0
 44
0.0
 50
0.0
 51
0.0
 71
     0
 72
  2000
 73
     1
 74
     3
 75
     0
 76
     0
 77
     0
 78
     0
281
     0
 65
     1
110
0.0
120
0.0
130
0.0
111
1.0
121
0.0
131
0.0
112
0.0
122
1.0
132
0.0
 79
     0
146
0.0
  0
ENDTAB
  0
TABLE
  2
LTYPE
  5
5
330
0
100
AcDbSymbolTable
 70
     6
  0
LTYPE
  5
14
330
5
100
AcDbSymbolTableRecord
100
AcDbLinetypeTableRecord
  2
ByBlock
 70
     0
  3

 72
    65
 73
     0
 40
0.0
  0
LTYPE
  5
15
330
5
100
AcDbSymbolTableRecord
100
AcDbLinetypeTableRecord
  2
ByLayer
 70
     0
  3

 72
    65
 73
     0
 40
0.0
  0
LTYPE
  5
16
330
5
100
AcDbSymbolTableRecord
100
AcDbLinetypeTableRecord
  2
Continuous
 70
     0
  3
Solid line
 72
    65
 73
     0
 40
0.0
  0
LTYPE
  5
6E
330
5
100
AcDbSymbolTableRecord
100
AcDbLinetypeTableRecord
  2
HIDDEN
 70
     0
  3
Hidden __ __ __ __ __ __ __ __ __ __ __ __ __ __
 72
    65
 73
     2
 40
1.905
 49
1.27
 74
     0
 49
-0.635
 74
     0
  0
LTYPE
  5
6F
330
5
100
AcDbSymbolTableRecord
100
AcDbLinetypeTableRecord
  2
PHANTOM
 70
     0
  3
Phantom ______  __  __  ______  __  __  ______
 72
    65
 73
     6
 40
12.7
 49
6.35
 74
     0
 49
-1.27
 74
     0
 49
1.27
 74
     0
 49
-1.27
 74
     0
 49
1.27
 74
     0
 49
-1.27
 74
     0
  0
LTYPE
  5
70
330
5
100
AcDbSymbolTableRecord
100
AcDbLinetypeTableRecord
  2
CENTER
 70
     0
  3
Center ____ _ ____ _ ____ _ ____ _ ____ _ ____
 72
    65
 73
     4
 40
10.16
 49
6.35
 74
     0
 49
-1.27
 74
     0
 49
1.27
 74
     0
 49
-1.27
 74
     0
  0
LTYPE
  5
71
330
5
100
AcDbSymbolTableRecord
100
AcDbLinetypeTableRecord
  2
CENTERX2
 70
     0
  3
Center (2x) ________  __  ________  __  _____
 72
    65
 73
     4
 40
20.32
 49
12.7
 74
     0
 49
-2.54
 74
     0
 49
2.54
 74
     0
 49
-2.54
 74
     0
  0
LTYPE
  5
72
330
5
100
AcDbSymbolTableRecord
100
AcDbLinetypeTableRecord
  2
DOT2
 70
     0
  3
Dot (.5x) ........................................
 72
    65
 73
     2
 40
0.635
 49
0.0
 74
     0
 49
-0.635
 74
     0
  0
ENDTAB
  0
TABLE
  2
LAYER
  5
2
330
0
100
AcDbSymbolTable
 70
    17
  0
LAYER
  5
10
330
2
100
AcDbSymbolTableRecord
100
AcDbLayerTableRecord
  2
0
 70
     0
 62
     7
  6
Continuous
370
    -3
390
F
  0
LAYER
  5
73
330
2
100
AcDbSymbolTableRecord
100
AcDbLayerTableRecord
  2
FORMAT
 70
     0
 62
     7
  6
Continuous
370
    -3
390
F
  0
LAYER
  5
74
330
2
100
AcDbSymbolTableRecord
100
AcDbLayerTableRecord
  2
YARDIMCI_GEOMETRI
 70
     0
 62
    -6
  6
Continuous
290
     0
370
    -3
390
F
  0
LAYER
  5
75
330
2
100
AcDbSymbolTableRecord
100
AcDbLayerTableRecord
  2
SAYFA_CERCEVESI
 70
     0
 62
     7
  6
Continuous
370
    25
390
F
  0
LAYER
  5
76
330
2
100
AcDbSymbolTableRecord
100
AcDbLayerTableRecord
  2
ANTET
 70
     0
 62
     7
  6
Continuous
370
    -3
390
F
  0
LAYER
  5
77
330
2
100
AcDbSymbolTableRecord
100
AcDbLayerTableRecord
  2
OLCU
 70
     0
 62
   150
  6
Continuous
370
    -3
390
F
  0
LAYER
  5
78
330
2
100
AcDbSymbolTableRecord
100
AcDbLayerTableRecord
  2
METIN
 70
     0
 62
    96
  6
Continuous
370
    -3
390
F
  0
LAYER
  5
79
330
2
100
AcDbSymbolTableRecord
100
AcDbLayerTableRecord
  2
BALON
 70
     0
 62
     5
  6
Continuous
370
    -3
390
F
  0
LAYER
  5
7A
330
2
100
AcDbSymbolTableRecord
100
AcDbLayerTableRecord
  2
VURGU
 70
     0
 62
     7
  6
Continuous
370
    -3
390
F
  0
LAYER
  5
7B
330
2
100
AcDbSymbolTableRecord
100
AcDbLayerTableRecord
  2
SILIK
 70
     0
 62
     7
  6
Continuous
370
    -3
390
F
  0
LAYER
  5
7C
330
2
100
AcDbSymbolTableRecord
100
AcDbLayerTableRecord
  2
MODEL
 70
     0
 62
     7
  6
Continuous
370
    -3
390
F
  0
LAYER
  5
7D
330
2
100
AcDbSymbolTableRecord
100
AcDbLayerTableRecord
  2
DETAYLANDıRMA
 70
     0
 62
   190
  6
Continuous
370
    -3
390
F
  0
LAYER
  5
7E
330
2
100
AcDbSymbolTableRecord
100
AcDbLayerTableRecord
  2
TOLERANS
 70
     0
 62
   230
  6
Continuous
370
    -3
390
F
  0
LAYER
  5
7F
330
2
100
AcDbSymbolTableRecord
100
AcDbLayerTableRecord
  2
MERKEZ_CIZGILERI
 70
     0
 62
    30
  6
Continuous
370
    -3
390
F
  0
LAYER
  5
80
330
2
100
AcDbSymbolTableRecord
100
AcDbLayerTableRecord
  2
KESIT-DETAY_CIZGILERI
 70
     0
 62
     7
  6
Continuous
370
    -3
390
F
  0
LAYER
  5
81
330
2
100
AcDbSymbolTableRecord
100
AcDbLayerTableRecord
  2
\U+041E\U+0421\U+0415\U+0412\U+042B\U+0415
 70
     0
 62
     7
  6
Continuous
370
    -3
390
F
  0
LAYER
  5
82
330
2
100
AcDbSymbolTableRecord
100
AcDbLayerTableRecord
  2
\U+0412\U+041E\U+0414\U+042F\U+041D\U+042B\U+0415_\U+0417\U+041D\U+0410\U+041A\U+0418
 70
     0
 62
    11
  6
Continuous
370
    -3
390
F
  0
ENDTAB
  0
TABLE
  2
STYLE
  5
3
330
0
100
AcDbSymbolTable
 70
     1
  0
STYLE
  5
11
330
3
100
AcDbSymbolTableRecord
100
AcDbTextStyleTableRecord
  2
Standard
 70
     0
 40
0.0
 41
1.0
 50
0.0
 71
     0
 42
3.5
  3
txt
  4

  0
ENDTAB
  0
TABLE
  2
VIEW
  5
6
330
0
100
AcDbSymbolTable
 70
     0
  0
ENDTAB
  0
TABLE
  2
UCS
  5
7
330
0
100
AcDbSymbolTable
 70
     0
  0
ENDTAB
  0
TABLE
  2
APPID
  5
9
330
0
100
AcDbSymbolTable
 70
     1
  0
APPID
  5
12
330
9
100
AcDbSymbolTableRecord
100
AcDbRegAppTableRecord
  2
ACAD
 70
     0
  0
ENDTAB
  0
TABLE
  2
DIMSTYLE
  5
A
330
0
100
AcDbSymbolTable
 70
     1
100
AcDbDimStyleTable
  0
DIMSTYLE
105
27
330
A
100
AcDbSymbolTableRecord
100
AcDbDimStyleTableRecord
  2
ISO-25
 70
     0
 41
2.5
 42
0.625
 43
3.75
 44
1.25
 73
     0
 74
     0
 77
     1
 78
     8
140
2.5
141
2.5
143
0.0393700787
147
0.625
171
     3
172
     1
178
     0
271
     2
272
     2
274
     3
278
    44
283
     0
284
     8
340
11
  0
ENDTAB
  0
TABLE
  2
BLOCK_RECORD
  5
1
330
0
100
AcDbSymbolTable
 70
     3
  0
BLOCK_RECORD
  5
1F
330
1
100
AcDbSymbolTableRecord
100
AcDbBlockTableRecord
  2
*Model_Space
340
22
  0
BLOCK_RECORD
  5
1B
330
1
100
AcDbSymbolTableRecord
100
AcDbBlockTableRecord
  2
*Paper_Space
340
1E
  0
BLOCK_RECORD
  5
23
330
1
100
AcDbSymbolTableRecord
100
AcDbBlockTableRecord
  2
*Paper_Space0
340
26
  0
BLOCK_RECORD
  5
88
330
1
100
AcDbSymbolTableRecord
100
AcDbBlockTableRecord
  2
SW_CENTERMARKSYMBOL_0
340
0
102
{BLKREFS
331
93
102
}
  0
BLOCK_RECORD
  5
9C
330
1
100
AcDbSymbolTableRecord
100
AcDbBlockTableRecord
  2
SW_CENTERMARKSYMBOL_1
340
0
102
{BLKREFS
331
A7
102
}
  0
ENDTAB
  0
ENDSEC
  0
SECTION
  2
BLOCKS
  0
BLOCK
  5
20
330
1F
100
AcDbEntity
  8
0
100
AcDbBlockBegin
  2
*Model_Space
 70
     0
 10
0.0
 20
0.0
 30
0.0
  3
*Model_Space
  1

  0
ENDBLK
  5
21
330
1F
100
AcDbEntity
  8
0
100
AcDbBlockEnd
  0
BLOCK
  5
1C
330
1B
100
AcDbEntity
 67
     1
  8
0
100
AcDbBlockBegin
  2
*Paper_Space
 70
     0
 10
0.0
 20
0.0
 30
0.0
  3
*Paper_Space
  1

  0
ENDBLK
  5
1D
330
1B
100
AcDbEntity
 67
     1
  8
0
100
AcDbBlockEnd
  0
BLOCK
  5
24
330
23
100
AcDbEntity
  8
0
100
AcDbBlockBegin
  2
*Paper_Space0
 70
     0
 10
0.0
 20
0.0
 30
0.0
  3
*Paper_Space0
  1

  0
ENDBLK
  5
25
330
23
100
AcDbEntity
  8
0
100
AcDbBlockEnd
  0
BLOCK
  5
89
330
88
100
AcDbEntity
  8
0
100
AcDbBlockBegin
  2
SW_CENTERMARKSYMBOL_0
 70
     0
 10
0.0
 20
0.0
 30
0.0
  3
SW_CENTERMARKSYMBOL_0
  1

  0
LINE
  5
8B
330
88
100
AcDbEntity
  8
FORMAT
 62
     0
100
AcDbLine
 10
0.0
 20
0.0
 30
0.0
 11
2.5
 21
0.0
 31
0.0
  0
LINE
  5
8C
330
88
100
AcDbEntity
  8
FORMAT
 62
     0
100
AcDbLine
 10
0.0
 20
0.0
 30
0.0
 11
0.0
 21
2.5
 31
0.0
  0
LINE
  5
8D
330
88
100
AcDbEntity
  8
FORMAT
 62
     0
100
AcDbLine
 10
0.0
 20
0.0
 30
0.0
 11
-2.5
 21
0.0
 31
0.0
  0
LINE
  5
8E
330
88
100
AcDbEntity
  8
FORMAT
 62
     0
100
AcDbLine
 10
0.0
 20
0.0
 30
0.0
 11
0.0
 21
-2.5
 31
0.0
  0
LINE
  5
8F
330
88
100
AcDbEntity
  8
FORMAT
 62
     0
100
AcDbLine
 10
5.0
 20
0.0
 30
0.0
 11
57.5
 21
0.0
 31
0.0
  0
LINE
  5
90
330
88
100
AcDbEntity
  8
FORMAT
 62
     0
100
AcDbLine
 10
0.0
 20
5.0
 30
0.0
 11
0.0
 21
57.5
 31
0.0
  0
LINE
  5
91
330
88
100
AcDbEntity
  8
FORMAT
 62
     0
100
AcDbLine
 10
-5.0
 20
0.0
 30
0.0
 11
-57.5
 21
0.0
 31
0.0
  0
LINE
  5
92
330
88
100
AcDbEntity
  8
FORMAT
 62
     0
100
AcDbLine
 10
0.0
 20
-5.0
 30
0.0
 11
0.0
 21
-57.5
 31
0.0
  0
ENDBLK
  5
8A
330
88
100
AcDbEntity
  8
0
100
AcDbBlockEnd
  0
BLOCK
  5
9D
330
9C
100
AcDbEntity
  8
0
100
AcDbBlockBegin
  2
SW_CENTERMARKSYMBOL_1
 70
     0
 10
0.0
 20
0.0
 30
0.0
  3
SW_CENTERMARKSYMBOL_1
  1

  0
LINE
  5
9F
330
9C
100
AcDbEntity
  8
FORMAT
 62
     0
100
AcDbLine
 10
0.0
 20
0.0
 30
0.0
 11
0.0
 21
2.5
 31
0.0
  0
LINE
  5
A0
330
9C
100
AcDbEntity
  8
FORMAT
 62
     0
100
AcDbLine
 10
0.0
 20
0.0
 30
0.0
 11
-2.5
 21
0.0
 31
0.0
  0
LINE
  5
A1
330
9C
100
AcDbEntity
  8
FORMAT
 62
     0
100
AcDbLine
 10
0.0
 20
0.0
 30
0.0
 11
0.0
 21
-2.5
 31
0.0
  0
LINE
  5
A2
330
9C
100
AcDbEntity
  8
FORMAT
 62
     0
100
AcDbLine
 10
0.0
 20
0.0
 30
0.0
 11
2.5
 21
0.0
 31
0.0
  0
LINE
  5
A3
330
9C
100
AcDbEntity
  8
FORMAT
 62
     0
100
AcDbLine
 10
0.0
 20
5.0
 30
0.0
 11
0.0
 21
47.5
 31
0.0
  0
LINE
  5
A4
330
9C
100
AcDbEntity
  8
FORMAT
 62
     0
100
AcDbLine
 10
-5.0
 20
0.0
 30
0.0
 11
-47.5
 21
0.0
 31
0.0
  0
LINE
  5
A5
330
9C
100
AcDbEntity
  8
FORMAT
 62
     0
100
AcDbLine
 10
0.0
 20
-5.0
 30
0.0
 11
0.0
 21
-47.5
 31
0.0
  0
LINE
  5
A6
330
9C
100
AcDbEntity
  8
FORMAT
 62
     0
100
AcDbLine
 10
5.0
 20
0.0
 30
0.0
 11
47.5
 21
0.0
 31
0.0
  0
ENDBLK
  5
9E
330
9C
100
AcDbEntity
  8
0
100
AcDbBlockEnd
  0
ENDSEC
  0
SECTION
  2
ENTITIES
  0
LINE
  5
83
330
1F
100
AcDbEntity
  8
0
  6
Continuous
 62
     7
370
    25
100
AcDbLine
 10
95.2388257771
 20
121.5090293873
 30
0.0
 11
95.2388257771
 21
-3.8167435241
 31
0.0
  0
LINE
  5
84
330
1F
100
AcDbEntity
  8
0
  6
Continuous
 62
     7
370
    25
100
AcDbLine
 10
185.2388293534
 20
-3.8167435241
 30
0.0
 11
185.2388293534
 21
121.4757550943
 31
0.0
  0
CIRCLE
  5
85
330
1F
100
AcDbEntity
  8
0
  6
Continuous
 62
     7
370
    25
100
AcDbCircle
 10
140.2388275653
 20
153.1832617212
 30
0.0
 40
48.39999999999999
  0
CIRCLE
  5
86
330
1F
100
AcDbEntity
  8
0
  6
Continuous
 62
     7
370
    25
100
AcDbCircle
 10
140.2388275653
 20
153.1832617212
 30
0.0
 40
55.0
  0
LINE
  5
87
330
1F
100
AcDbEntity
  8
0
  6
Continuous
 62
     7
370
    25
100
AcDbLine
 10
185.2388293534
 20
-3.8167435241
 30
0.0
 11
95.2388257771
 21
-3.8167435241
 31
0.0
  0
INSERT
  5
93
330
1F
100
AcDbEntity
  8
FORMAT
 62
     7
100
AcDbBlockReference
  2
SW_CENTERMARKSYMBOL_0
 10
140.2388275653
 20
153.1832617212
 30
0.0
  0
LINE
  5
94
330
1F
100
AcDbEntity
  8
0
  6
Continuous
 62
     7
370
    25
100
AcDbLine
 10
195.2388272672
 20
238.1036376116
 30
0.0
 11
195.2388272672
 21
565.1036297438
 31
0.0
  0
LINE
  5
95
330
1F
100
AcDbEntity
  8
0
  6
Continuous
 62
     7
370
    25
100
AcDbLine
 10
85.2388278633
 20
565.1036297438
 30
0.0
 11
85.2388278633
 21
238.1036376116
 31
0.0
  0
CIRCLE
  5
96
330
1F
100
AcDbEntity
  8
0
  6
Continuous
 62
     7
370
    25
100
AcDbCircle
 10
140.2388275653
 20
401.6036336777
 30
0.0
 40
39.59999999999997
  0
CIRCLE
  5
97
330
1F
100
AcDbEntity
  8
0
  6
Continuous
 62
     7
370
    25
100
AcDbCircle
 10
140.2388275653
 20
401.6036336777
 30
0.0
 40
45.0
  0
LINE
  5
98
330
1F
100
AcDbEntity
  8
0
  6
Continuous
 62
     7
370
    25
100
AcDbLine
 10
140.2388275653
 20
565.1036297438
 30
0.0
 11
195.2388272672
 21
565.1036297438
 31
0.0
  0
LINE
  5
99
330
1F
100
AcDbEntity
  8
0
  6
Continuous
 62
     7
370
    25
100
AcDbLine
 10
85.2388278633
 20
565.1036297438
 30
0.0
 11
140.2388275653
 21
565.1036297438
 31
0.0
  0
LINE
  5
9A
330
1F
100
AcDbEntity
  8
0
  6
Continuous
 62
     7
370
    25
100
AcDbLine
 10
140.2388275653
 20
238.1036376116
 30
0.0
 11
195.2388272672
 21
238.1036376116
 31
0.0
  0
LINE
  5
9B
330
1F
100
AcDbEntity
  8
0
  6
Continuous
 62
     7
370
    25
100
AcDbLine
 10
85.2388278633
 20
238.1036376116
 30
0.0
 11
140.2388275653
 21
238.1036376116
 31
0.0
  0
INSERT
  5
A7
330
1F
100
AcDbEntity
  8
FORMAT
100
AcDbBlockReference
  2
SW_CENTERMARKSYMBOL_1
 10
140.2388275653
 20
401.6036336777
 30
0.0
  0
LINE
  5
A8
330
1F
100
AcDbEntity
  8
0
  6
Continuous
 62
     7
370
    25
100
AcDbLine
 10
-13.6439322602
 20
208.1832614231
 30
0.0
 11
-340.6439243924
 21
208.1832614231
 31
0.0
  0
LINE
  5
A9
330
1F
100
AcDbEntity
  8
0
  6
Continuous
 62
     7
370
    25
100
AcDbLine
 10
-132.1501403224
 20
98.1832620192
 30
0.0
 11
-13.6439322602
 21
98.1832620192
 31
0.0
  0
LINE
  5
AA
330
1F
100
AcDbEntity
  8
0
  6
Continuous
 62
     7
370
    25
100
AcDbLine
 10
-340.6439243924
 20
98.1832620192
 30
0.0
 11
-222.1439301144
 21
98.1832620192
 31
0.0
  0
LINE
  5
AB
330
1F
100
AcDbEntity
  8
0
  6
Continuous
 62
     7
370
    25
100
AcDbLine
 10
-222.1439301144
 20
98.1832620192
 30
0.0
 11
-222.1439301144
 21
-3.8167435241
 31
0.0
  0
LINE
  5
AC
330
1F
100
AcDbEntity
  8
0
  6
Continuous
 62
     7
370
    25
100
AcDbLine
 10
-132.1439265381
 20
-3.8167435241
 30
0.0
 11
-132.1439265381
 21
98.1883842933
 31
0.0
  0
SPLINE
  5
AD
330
1F
100
AcDbEntity
  8
0
  6
Continuous
 62
     7
370
    25
100
AcDbSpline
210
0.0
220
0.0
230
1.0
 70
     8
 71
     3
 72
    40
 73
    36
 74
     0
 42
0.000000001
 43
0.00000001
 40
0.0
 40
0.0
 40
0.0
 40
0.0
 40
0.001087625632913
 40
0.0234879421306999
 40
0.0624959030189653
 40
0.1025650256909883
 40
0.1431871212119066
 40
0.1846666742214541
 40
0.2141235945631366
 40
0.2435850769554845
 40
0.273888885016295
 40
0.3041941307422194
 40
0.3340557884577169
 40
0.3639127207755024
 40
0.3948032462904835
 40
0.4256712461405068
 40
0.4566721272977267
 40
0.4884534191908157
 40
0.5195012164364422
 40
0.5515608568391138
 40
0.571680351276836
 40
0.5918063999585105
 40
0.6331217242817455
 40
0.6634882132499029
 40
0.6938601418703572
 40
0.7250873028764596
 40
0.7563129048089842
 40
0.7870159254990677
 40
0.8177135178888252
 40
0.8495978671312501
 40
0.8814723340421506
 40
0.9222095683425737
 40
0.9431490860637963
 40
0.9640870520520671
 40
1.0
 40
1.0
 40
1.0
 40
1.0
 10
-132.1501403223572
 20
98.18838801862506
 30
0.0
 10
-132.1482218263778
 20
98.18681998098766
 30
0.0
 10
-132.1067907298881
 20
98.15295724718325
 30
0.0
 10
-132.3061684835901
 20
98.31595369375079
 30
0.0
 10
-132.9926169948471
 20
98.87685156761944
 30
0.0
 10
-134.6036115209769
 20
100.1810842034638
 30
0.0
 10
-136.9127621479436
 20
102.0200417072417
 30
0.0
 10
-139.5724167334608
 20
104.0860041119058
 30
0.0
 10
-142.3269632879142
 20
106.1596841569015
 30
0.0
 10
-145.0187788862128
 20
108.1193450070125
 30
0.0
 10
-147.9657203106706
 20
110.176336071218
 30
0.0
 10
-151.1484541429626
 20
112.2727070195156
 30
0.0
 10
-154.5286455600818
 20
114.3411296934891
 30
0.0
 10
-158.149082696768
 20
116.3399989485419
 30
0.0
 10
-162.0397053159485
 20
118.2030267733191
 30
0.0
 10
-166.2262556678022
 20
119.8112416163664
 30
0.0
 10
-170.6941915026035
 20
121.01479881243
 30
0.0
 10
-175.3627610806757
 20
121.6291478341504
 30
0.0
 10
-180.144178415076
 20
121.5362429488238
 30
0.0
 10
-184.2507733865181
 20
120.8417908354504
 30
0.0
 10
-187.6790643319381
 20
119.8870731862319
 30
0.0
 10
-191.4136485649473
 20
118.5643184252455
 30
0.0
 10
-195.3796548754496
 20
116.7450476767426
 30
0.0
 10
-199.4785423740752
 20
114.505746225561
 30
0.0
 10
-202.947643124329
 20
112.3959237716909
 30
0.0
 10
-206.2239277640389
 20
110.2443831999521
 30
0.0
 10
-209.2760235417693
 20
108.1154206883138
 30
0.0
 10
-212.066061006376
 20
106.0825954276045
 30
0.0
 10
-214.6101030279718
 20
104.1636270603042
 30
0.0
 10
-216.8808101793861
 20
102.405165842636
 30
0.0
 10
-219.0068091567796
 20
100.7235900869476
 30
0.0
 10
-220.4691828298954
 20
99.54617633675186
 30
0.0
 10
-221.3701554935677
 20
98.81495542420619
 30
0.0
 10
-221.9877650115751
 20
98.31117820527565
 30
0.0
 10
-222.0834717732519
 20
98.23278396920801
 30
0.0
 10
-222.143930114418
 20
98.18326201917439
 30
0.0
  0
LINE
  5
AE
330
1F
100
AcDbEntity
  8
0
  6
Continuous
 62
     7
370
    25
100
AcDbLine
 10
-340.6439243924
 20
98.1832620192
 30
0.0
 11
-340.6439243924
 21
208.1832614231
 31
0.0
  0
LINE
  5
AF
330
1F
100
AcDbEntity
  8
0
  6
Continuous
 62
     7
370
    25
100
AcDbLine
 10
-13.6439322602
 20
98.1832620192
 30
0.0
 11
-13.6439322602
 21
208.1832614231
 31
0.0
  0
LINE
  5
B0
330
1F
100
AcDbEntity
  8
0
  6
Continuous
 62
     7
370
    25
100
AcDbLine
 10
-132.1439265381
 20
-3.8167435241
 30
0.0
 11
-222.1439301144
 21
-3.8167435241
 31
0.0
  0
LINE
  5
B1
330
1F
100
AcDbEntity
  8
0
  6
Continuous
 62
     7
370
    25
100
AcDbLine
 10
510.8950241388
 20
98.1832620192
 30
0.0
 11
629.3950184168
 21
98.1832620192
 31
0.0
  0
LINE
  5
B2
330
1F
100
AcDbEntity
  8
0
  6
Continuous
 62
     7
370
    25
100
AcDbLine
 10
302.3950262846
 20
98.1832620192
 30
0.0
 11
420.9002806725
 21
98.1832620192
 31
0.0
  0
LINE
  5
B3
330
1F
100
AcDbEntity
  8
0
  6
Continuous
 62
     7
370
    25
100
AcDbLine
 10
629.3950184168
 20
208.1832614231
 30
0.0
 11
302.3950262846
 21
208.1832614231
 31
0.0
  0
LINE
  5
B4
330
1F
100
AcDbEntity
  8
0
  6
Continuous
 62
     7
370
    25
100
AcDbLine
 10
420.8950205626
 20
98.1875610042
 30
0.0
 11
420.8950205626
 21
-3.8167435241
 31
0.0
  0
LINE
  5
B5
330
1F
100
AcDbEntity
  8
0
  6
Continuous
 62
     7
370
    25
100
AcDbLine
 10
510.8950241388
 20
-3.8167435241
 30
0.0
 11
510.8950241388
 21
98.1832620192
 31
0.0
  0
SPLINE
  5
B6
330
1F
100
AcDbEntity
  8
0
  6
Continuous
 62
     7
370
    25
100
AcDbSpline
210
0.0
220
0.0
230
1.0
 70
     8
 71
     3
 72
    41
 73
    37
 74
     0
 42
0.000000001
 43
0.00000001
 40
0.0
 40
0.0
 40
0.0
 40
0.0
 40
0.0209997680646802
 40
0.0421728206933341
 40
0.0638791519803863
 40
0.0857611976655686
 40
0.1278544152894764
 40
0.1709815243119528
 40
0.1994849733567554
 40
0.228205748378754
 40
0.2575426422011617
 40
0.2870681755208001
 40
0.3160873900348319
 40
0.3452815585664433
 40
0.3750834912426834
 40
0.4051492034763701
 40
0.4377076811968934
 40
0.4709904848668653
 40
0.5036176700942817
 40
0.5374556357443427
 40
0.5742348836327137
 40
0.6120593467178439
 40
0.6404919416287638
 40
0.6691410143548417
 40
0.6983705221858568
 40
0.7277774128680234
 40
0.7572720527890743
 40
0.7869612757333598
 40
0.8173282222390467
 40
0.8479677152445415
 40
0.8911131328558968
 40
0.913196130405629
 40
0.9354452915778873
 40
0.9569776713483679
 40
0.9786880307683417
 40
1.0
 40
1.0
 40
1.0
 40
1.0
 10
510.8950241388392
 20
98.18326201917439
 30
0.0
 10
510.8736333715182
 20
98.20077103555741
 30
0.0
 10
510.8306753258889
 20
98.23593354812253
 30
0.0
 10
510.4812101439267
 20
98.52152184729864
 30
0.0
 10
509.9184095133573
 20
98.97987911082714
 30
0.0
 10
508.8791988375698
 20
99.82178068483447
 30
0.0
 10
507.0796536376061
 20
101.2658213203513
 30
0.0
 10
504.5551662672708
 20
103.2469259627076
 30
0.0
 10
501.9436609885491
 20
105.2384565435268
 30
0.0
 10
499.450161165737
 20
107.0868735774821
 30
0.0
 10
496.7013401320995
 20
109.051421399934
 30
0.0
 10
493.7283530392525
 20
111.0771291526741
 30
0.0
 10
490.555200041166
 20
113.1091180055763
 30
0.0
 10
487.1689310765778
 20
115.1073603323571
 30
0.0
 10
483.5293294489533
 20
117.0259211162467
 30
0.0
 10
479.5191553161394
 20
118.8218493737295
 30
0.0
 10
475.0983437993395
 20
120.350979566709
 30
0.0
 10
470.3023067236161
 20
121.3793697860408
 30
0.0
 10
465.2858935761328
 20
121.6890654023485
 30
0.0
 10
460.1155190334301
 20
121.1747532875463
 30
0.0
 10
454.9108329319961
 20
119.8275696232053
 30
0.0
 10
450.2894678647473
 20
117.9882004023316
 30
0.0
 10
446.3046539979368
 20
116.023434919747
 30
0.0
 10
442.8833795260746
 20
114.1049705444277
 30
0.0
 10
439.6255013162786
 20
112.0967418257187
 30
0.0
 10
436.5407752301168
 20
110.0545966442191
 30
0.0
 10
433.651569993771
 20
108.0348447201805
 30
0.0
 10
430.958066844135
 20
106.0707352880311
 30
0.0
 10
428.482927302252
 20
104.2047278659667
 30
0.0
 10
425.9681975348191
 20
102.2584837540974
 30
0.0
 10
424.0589882922358
 20
100.7434534871911
 30
0.0
 10
422.7061690746006
 20
99.65590195445535
 30
0.0
 10
421.8981716633957
 20
99.00143687130326
 30
0.0
 10
421.3217047438526
 20
98.53203220391912
 30
0.0
 10
420.9601358165407
 20
98.23656218679045
 30
0.0
 10
420.9201088361466
 20
98.20379607631239
 30
0.0
 10
420.900280672462
 20
98.18756472946912
 30
0.0
  0
LINE
  5
B7
330
1F
100
AcDbEntity
  8
0
  6
Continuous
 62
     7
370
    25
100
AcDbLine
 10
629.3950184168
 20
208.1832614231
 30
0.0
 11
629.3950184168
 21
98.1832620192
 31
0.0
  0
LINE
  5
B8
330
1F
100
AcDbEntity
  8
0
  6
Continuous
 62
     7
370
    25
100
AcDbLine
 10
302.3950262846
 20
208.1832614231
 30
0.0
 11
302.3950262846
 21
98.1832620192
 31
0.0
  0
LINE
  5
B9
330
1F
100
AcDbEntity
  8
0
  6
Continuous
 62
     7
370
    25
100
AcDbLine
 10
510.8950241388
 20
-3.8167435241
 30
0.0
 11
420.8950205626
 21
-3.8167435241
 31
0.0
  0
LINE
  5
BA
330
1F
100
AcDbEntity
  8
0
  6
Continuous
 62
     7
370
    25
100
AcDbLine
 10
85.2388278633
 20
-39.9706680921
 30
0.0
 11
85.2388278633
 21
-366.9706602243
 31
0.0
  0
LINE
  5
BB
330
1F
100
AcDbEntity
  8
0
  6
Continuous
 62
     7
370
    25
100
AcDbLine
 10
195.2388272672
 20
-366.9706602243
 30
0.0
 11
195.2388272672
 21
-39.9706680921
 31
0.0
  0
LINE
  5
BC
330
1F
100
AcDbEntity
  8
0
  6
Continuous
 62
     7
370
    25
100
AcDbLine
 10
195.2388272672
 20
-366.9706602243
 30
0.0
 11
85.2388278633
 21
-366.9706602243
 31
0.0
  0
LINE
  5
BD
330
1F
100
AcDbEntity
  8
0
  6
Continuous
 62
     7
370
    25
100
AcDbLine
 10
195.2388272672
 20
-39.9706680921
 30
0.0
 11
85.2388278633
 21
-39.9706680921
 31
0.0
  0
LINE
  5
BE
330
1F
100
AcDbEntity
  8
0
  6
Continuous
 62
     7
370
    25
100
AcDbLine
 10
591.2168150923
 20
-202.4566178336
 30
0.0
 11
359.9929032076
 21
-68.9738947623
 31
0.0
  0
LINE
  5
BF
330
1F
100
AcDbEntity
  8
0
  6
Continuous
 62
     7
370
    25
100
AcDbLine
 10
493.107091369
 20
-272.8327024552
 30
0.0
 11
536.2212838102
 21
-297.721995968
 31
0.0
  0
LINE
  5
C0
330
1F
100
AcDbEntity
  8
0
  6
Continuous
 62
     7
370
    25
100
AcDbLine
 10
304.9973719256
 20
-164.2392728967
 30
0.0
 11
403.1070930147
 21
-220.8768093175
 31
0.0
  0
LINE
  5
C1
330
1F
100
AcDbEntity
  8
0
  6
Continuous
 62
     7
370
    25
100
AcDbLine
 10
403.1070930147
 20
-219.9699340065
 30
0.0
 11
403.1070930147
 21
-311.5448571142
 31
0.0
  0
LINE
  5
C2
330
1F
100
AcDbEntity
  8
0
  6
Continuous
 62
     7
370
    25
100
AcDbLine
 10
493.1070940032
 20
-311.5448571142
 30
0.0
 11
493.1070940032
 21
-219.975865617
 31
0.0
  0
SPLINE
  5
C3
330
1F
100
AcDbEntity
  8
0
  6
Continuous
 62
     7
370
    25
100
AcDbSpline
210
0.0
220
0.0
230
1.0
 70
     8
 71
     3
 72
    16
 73
    12
 74
     0
 42
0.000000001
 43
0.00000001
 40
0.0
 40
0.0
 40
0.0
 40
0.0
 40
0.0851025335803774
 40
0.1709073108893095
 40
0.258873224682905
 40
0.3475512292206151
 40
0.5181359449808697
 40
0.6929105535625186
 40
0.8084221021672731
 40
0.9248143743693196
 40
1.0
 40
1.0
 40
1.0
 40
1.0
 10
416.2872870911354
 20
-209.8885065295954
 30
0.0
 10
415.5577893342554
 20
-210.3128035928992
 30
0.0
 10
414.0927741968343
 20
-211.1648989072999
 30
0.0
 10
412.093468049301
 20
-212.3711823875549
 30
0.0
 10
410.251418684998
 20
-213.5197945552487
 30
0.0
 10
408.0959655440969
 20
-214.9250241769868
 30
0.0
 10
405.922679623925
 20
-216.4701241193494
 30
0.0
 10
404.3532762541344
 20
-217.8178247050628
 30
0.0
 10
403.5121423695274
 20
-218.8135310625048
 30
0.0
 10
403.1379535695852
 20
-219.4777201411173
 30
0.0
 10
403.1447327743473
 20
-219.8313999152953
 30
0.0
 10
403.1473933043828
 20
-219.9702031665852
 30
0.0
  0
SPLINE
  5
C4
330
1F
100
AcDbEntity
  8
0
  6
Continuous
 62
     7
370
    25
100
AcDbSpline
210
0.0
220
0.0
230
1.0
 70
     8
 71
     3
 72
    32
 73
    28
 74
     0
 42
0.000000001
 43
0.00000001
 40
0.0
 40
0.0
 40
0.0
 40
0.0
 40
0.0359662853264717
 40
0.0763268240801199
 40
0.1158323495442281
 40
0.1556022168317356
 40
0.1963587910162792
 40
0.2375854934470442
 40
0.2787387386621994
 40
0.3209279684424022
 40
0.3621434941224557
 40
0.4047022277374698
 40
0.4313065043807177
 40
0.4581278168667663
 40
0.5129733441404892
 40
0.5531402336879335
 40
0.593602539657076
 40
0.6349132936405598
 40
0.6765076980616204
 40
0.7171013669263328
 40
0.7580163146160707
 40
0.8000942514537301
 40
0.8426558821633039
 40
0.8967340028480154
 40
0.9244266307752644
 40
0.952326053385222
 40
0.9999999999999999
 40
0.9999999999999999
 40
0.9999999999999999
 40
0.9999999999999999
 10
493.0902668739308
 20
-219.9762123317456
 30
0.0
 10
493.06867863811
 20
-218.7753868403073
 30
0.0
 10
493.0228645802295
 20
-216.2270225818368
 30
0.0
 10
492.5097960387332
 20
-212.348720787636
 30
0.0
 10
491.6592108125809
 20
-208.3918102841943
 30
0.0
 10
490.4379918732468
 20
-204.5166741306505
 30
0.0
 10
488.8164162519354
 20
-200.7513111173583
 30
0.0
 10
486.7544620627998
 20
-197.2093267157301
 30
0.0
 10
484.2161421340391
 20
-194.0351587071924
 30
0.0
 10
481.2203973107476
 20
-191.4514224535267
 30
0.0
 10
477.793822381281
 20
-189.6017765210622
 30
0.0
 10
474.5448177988094
 20
-188.6945783334258
 30
0.0
 10
471.6187803112076
 20
-188.3633759080726
 30
0.0
 10
468.2520674486419
 20
-188.3381112689545
 30
0.0
 10
464.3756850985063
 20
-188.82333103298
 30
0.0
 10
459.9936280036293
 20
-189.8362859871824
 30
0.0
 10
455.9931427599846
 20
-191.0354441583179
 30
0.0
 10
451.8925485255998
 20
-192.4845915396982
 30
0.0
 10
447.7383939069181
 20
-194.1290625508782
 30
0.0
 10
443.5593729912844
 20
-195.9232464589598
 30
0.0
 10
439.3424929340753
 20
-197.8479513664153
 30
0.0
 10
435.0616728918372
 20
-199.9006001221575
 30
0.0
 10
430.3808899910375
 20
-202.2397648213539
 30
0.0
 10
426.2857689542562
 20
-204.3711168094328
 30
0.0
 10
422.8353262621857
 20
-206.2244087921337
 30
0.0
 10
419.6925947347476
 20
-207.9457431631141
 30
0.0
 10
417.6045121657963
 20
-209.1370159483371
 30
0.0
 10
416.2872870911354
 20
-209.8885065295954
 30
0.0
  0
LWPOLYLINE
  5
C5
330
1F
100
AcDbEntity
  8
0
  6
Continuous
 62
     7
370
    25
100
AcDbPolyline
 90
       89
 70
   128
 43
0.0
 10
332.4951375666
 20
-161.5163282399
 10
335.2695806397
 20
-159.8002510156
 10
338.0298860792
 20
-157.8640686483
 10
340.7619870453
 20
-155.7176508165
 10
343.4519628949
 20
-153.3719265372
 10
346.0861040483
 20
-150.8388588866
 10
348.6509900271
 20
-148.1313482388
 10
351.1335487228
 20
-145.2631980498
 10
353.5211308124
 20
-142.2490171459
 10
355.8015703448
 20
-139.1041695383
 10
357.9632426923
 20
-135.844680131
 10
359.9951369906
 20
-132.4871564005
 10
361.886898286
 20
-129.0487093111
 10
363.6288854869
 20
-125.5468620651
 10
365.2122214133
 20
-121.9994542888
 10
366.628840212
 20
-118.4245659912
 10
367.8715189669
 20
-114.8404156644
 10
368.9339303824
 20
-111.2652629496
 10
369.8106559542
 20
-107.7173310712
 10
370.4972333848
 20
-104.214693532
 10
370.9901565832
 20
-100.7752056717
 10
371.2869204461
 20
-97.4163887004
 10
371.3860103212
 20
-94.155360876
 10
371.2869204461
 20
-91.0087397861
 10
370.9901565832
 20
-87.9925590777
 10
370.4972333848
 20
-85.1221882283
 10
369.8106559542
 20
-82.4122561172
 10
368.9339303824
 20
-79.8765700378
 10
367.8715189669
 20
-77.5280514338
 10
366.628840212
 20
-75.3786674575
 10
365.2122214133
 20
-73.4393724103
 10
363.6288854869
 20
-71.7200453828
 10
361.886898286
 20
-70.2294537481
 10
359.9951369906
 20
-68.9751877588
 10
357.9632426923
 20
-67.9636392497
 10
355.8015703448
 20
-67.19996361
 10
353.5211308124
 20
-66.6880554427
 10
351.1335487228
 20
-66.4305181427
 10
348.6509900271
 20
-66.4286692128
 10
346.0861040483
 20
-66.6825128819
 10
343.4519628949
 20
-67.1907598709
 10
340.7619870453
 20
-67.9508155991
 10
338.0298860792
 20
-68.9588143991
 10
335.2695806397
 20
-70.2096128555
 10
332.4951375666
 20
-71.6968394191
 10
329.7206944936
 20
-73.4129166434
 10
326.960389054
 20
-75.3490990107
 10
324.2282880879
 20
-77.4955168425
 10
321.5383122384
 20
-79.8412411218
 10
318.904171085
 20
-82.3743087724
 10
316.3392851062
 20
-85.0818194202
 10
313.8567264105
 20
-87.9499696092
 10
311.4691443208
 20
-90.9641505131
 10
309.1887047884
 20
-94.1089981207
 10
307.027032441
 20
-97.368487528
 10
304.9951381426
 20
-100.7260112585
 10
303.1033768472
 20
-104.1644583479
 10
301.3613896464
 20
-107.6663055939
 10
299.77805372
 20
-111.2137133702
 10
298.3614349213
 20
-114.7886016678
 10
297.1187561663
 20
-118.3727519946
 10
296.0563447509
 20
-121.9479047094
 10
295.179619179
 20
-125.4958365878
 10
294.4930417484
 20
-128.998474127
 10
294.00011855
 20
-132.4379619873
 10
293.7033546871
 20
-135.7967789585
 10
293.6042648121
 20
-139.057806783
 10
293.7033546871
 20
-142.2044278729
 10
294.00011855
 20
-145.2206085813
 10
294.4930417484
 20
-148.0909794307
 10
295.179619179
 20
-150.8009115418
 10
296.0563447509
 20
-153.3365976212
 10
297.1187561663
 20
-155.6851162252
 10
298.3614349213
 20
-157.8345002015
 10
299.77805372
 20
-159.7737952487
 10
301.3613896464
 20
-161.4931222762
 10
303.1033768472
 20
-162.9837139109
 10
304.9951381426
 20
-164.2379799002
 10
307.027032441
 20
-165.2495284093
 10
309.1887047884
 20
-166.013204049
 10
311.4691443208
 20
-166.5251122163
 10
313.8567264105
 20
-166.7826495163
 10
316.3392851062
 20
-166.7844984462
 10
318.904171085
 20
-166.5306547771
 10
321.5383122384
 20
-166.0224077881
 10
324.2282880879
 20
-165.2623520599
 10
326.960389054
 20
-164.2543532599
 10
329.7206944936
 20
-163.0035548035
 10
332.4951375666
 20
-161.5163282399
  0
LWPOLYLINE
  5
C6
330
1F
100
AcDbEntity
  8
0
  6
Continuous
 62
     7
370
    25
100
AcDbPolyline
 90
       35
 70
   128
 43
0.0
 10
563.7190494512
 20
-294.9990513112
 10
566.4934925243
 20
-293.2829740869
 10
569.2537979638
 20
-291.3467917196
 10
571.9858989299
 20
-289.2003738878
 10
574.6758747795
 20
-286.8546496085
 10
577.3100159329
 20
-284.321581958
 10
579.8749019117
 20
-281.6140713101
 10
582.3574606074
 20
-278.7459211211
 10
584.745042697
 20
-275.7317402173
 10
587.0254822294
 20
-272.5868926096
 10
589.1871545769
 20
-269.3274032023
 10
591.2190488752
 20
-265.9698794718
 10
593.1108101706
 20
-262.5314323825
 10
594.8527973715
 20
-259.0295851364
 10
596.4361332979
 20
-255.4821773601
 10
597.8527520966
 20
-251.9072890625
 10
599.0954308515
 20
-248.3231387357
 10
600.157842267
 20
-244.747986021
 10
601.0345678388
 20
-241.2000541426
 10
601.7211452694
 20
-237.6974166034
 10
602.2140684678
 20
-234.257928743
 10
602.5108323307
 20
-230.8991117718
 10
602.6099222058
 20
-227.6380839474
 10
602.5108323307
 20
-224.4914628574
 10
602.2140684678
 20
-221.4752821491
 10
601.7211452694
 20
-218.6049112996
 10
601.0345678388
 20
-215.8949791886
 10
600.157842267
 20
-213.3592931092
 10
599.0954308515
 20
-211.0107745051
 10
597.8527520966
 20
-208.8613905289
 10
596.4361332979
 20
-206.9220954816
 10
594.8527973715
 20
-205.2027684542
 10
593.1108101706
 20
-203.7121768195
 10
591.2190488752
 20
-202.4579108302
 10
591.2168150923
 20
-202.4566178336
  0
LWPOLYLINE
  5
C7
330
1F
100
AcDbEntity
  8
0
  6
Continuous
 62
     7
370
    25
100
AcDbPolyline
 90
       12
 70
   128
 43
0.0
 10
536.2212838102
 20
-297.721995968
 10
538.2509443256
 20
-298.7322514806
 10
540.4126166731
 20
-299.4959271204
 10
542.6930562054
 20
-300.0078352876
 10
545.0806382951
 20
-300.2653725876
 10
547.5631969908
 20
-300.2672215175
 10
550.1280829696
 20
-300.0133778484
 10
552.762224123
 20
-299.5051308594
 10
555.4521999726
 20
-298.7450751312
 10
558.1843009386
 20
-297.7370763313
 10
560.9446063782
 20
-296.4862778748
 10
563.7190494512
 20
-294.9990513112
  0
LWPOLYLINE
  5
C8
330
1F
100
AcDbEntity
  8
0
  6
Continuous
 62
     7
370
    25
100
AcDbPolyline
 90
       84
 70
   128
 43
0.0
 10
332.4951375666
 20
-156.1271589106
 10
335.0834534066
 20
-154.5197717263
 10
337.656943434
 20
-152.6952196642
 10
340.2008676118
 20
-150.6639557097
 10
342.7006531733
 20
-148.4376138628
 10
345.1419830315
 20
-146.0289489748
 10
347.5108729939
 20
-143.451752629
 10
349.7937544093
 20
-140.7207902209
 10
351.9775499009
 20
-137.8517055263
 10
354.0497523915
 20
-134.8609294538
 10
355.9984935919
 20
-131.7655918374
 10
357.8126072215
 20
-128.5834301866
 10
359.4817067162
 20
-125.3326611759
 10
360.9962273757
 20
-122.0319122068
 10
362.3474974858
 20
-118.700087573
 10
363.5277751973
 20
-115.3562726459
 10
364.5303038436
 20
-112.0196167678
 10
365.3493356482
 20
-108.7092351552
 10
365.9801817742
 20
-105.4440895102
 10
366.4192281293
 20
-102.2428819379
 10
366.6639590735
 20
-99.1239488637
 10
366.7129758583
 20
-96.1051538575
 10
366.5659966267
 20
-93.2037889158
 10
366.2238616814
 20
-90.4364730359
 10
365.688533485
 20
-87.8190570626
 10
364.9630729525
 20
-85.3665349499
 10
364.0516420851
 20
-83.0929505564
 10
362.9594565553
 20
-81.0113318613
 10
361.6927751701
 20
-79.1335981868
 10
360.2588524559
 20
-77.4705062008
 10
358.6659017797
 20
-76.031582232
 10
356.9230453001
 20
-74.8250690334
 10
355.0402718202
 20
-73.857875587
 10
353.0283577622
 20
-73.1355436368
 10
350.8988342405
 20
-72.6622089013
 10
348.6638948653
 20
-72.4405843355
 10
346.3363417417
 20
-72.4719365509
 10
343.9295077619
 20
-72.7560911316
 10
341.4571795552
 20
-73.2914162771
 10
338.9335171455
 20
-74.0748448485
 10
336.3729759141
 20
-75.1018950832
 10
333.7902230465
 20
-76.3666792854
 10
331.2000520867
 20
-77.8619531527
 10
328.6172992192
 20
-79.5791519381
 10
326.0567579878
 20
-81.5084396817
 10
323.5330955781
 20
-83.6387697075
 10
321.0607673713
 20
-85.9579339499
 10
318.6539333915
 20
-88.4526507324
 10
316.326380268
 20
-91.1086341519
 10
314.0914408927
 20
-93.9106647949
 10
311.9619173711
 20
-96.8426950536
 10
309.9500033131
 20
-99.8879335308
 10
308.0672298331
 20
-103.0289309664
 10
306.3243733535
 20
-106.2477034243
 10
304.7314226773
 20
-109.5258090956
 10
303.2974999631
 20
-112.8444730077
 10
302.030818578
 20
-116.1846858797
 10
300.9386330482
 20
-119.5273151461
 10
300.0272021808
 20
-122.8532152199
 10
299.3017416483
 20
-126.1433362348
 10
298.7664134519
 20
-129.3788289874
 10
298.4242785066
 20
-132.5411654669
 10
298.2772992749
 20
-135.6122290173
 10
298.3263160597
 20
-138.5744304485
 10
298.571047004
 20
-141.4108031889
 10
299.0100933591
 20
-144.1050986295
 10
299.6409394851
 20
-146.641884841
 10
300.4599712896
 20
-149.0066324604
 10
301.4624999359
 20
-151.1857934015
 10
302.6427776475
 20
-153.1668886892
 10
303.9940477576
 20
-154.9385700624
 10
305.508568417
 20
-156.4906906987
 10
307.1776679117
 20
-157.8143584523
 10
308.9917815413
 20
-158.9019890897
 10
310.9405227417
 20
-159.7473580081
 10
313.0127252323
 20
-160.345620011
 10
315.196520724
 20
-160.6933480996
 10
317.4794021394
 20
-160.7885517292
 10
319.8482921017
 20
-160.6306859418
 10
322.2896219599
 20
-160.2206513733
 10
324.7894075214
 20
-159.5608022452
 10
327.3333316993
 20
-158.6549138631
 10
329.9068217267
 20
-157.5081775851
 10
332.4951375666
 20
-156.1271589106
  0
LWPOLYLINE
  5
C9
330
1F
100
AcDbEntity
  8
0
  6
Continuous
 62
     7
370
    25
100
AcDbPolyline
 90
       76
 70
   128
 43
0.0
 10
476.1085218922
 20
-327.7097376407
 10
478.3534163201
 20
-326.300402834
 10
480.3861533908
 20
-324.78756798
 10
482.1924787437
 20
-323.18184637
 10
483.7597158911
 20
-321.4944975834
 10
485.0768773469
 20
-319.7373602934
 10
486.134725049
 20
-317.9227596002
 10
486.9258306151
 20
-316.0634205422
 10
487.4446556861
 20
-314.1723882611
 10
487.6875532425
 20
-312.2629253552
 10
487.6528229222
 20
-310.348426722
 10
487.3407070697
 20
-308.4423184331
 10
486.7533973212
 20
-306.5579733361
 10
485.8950108968
 20
-304.7086076488
 10
484.771568869
 20
-302.9071923796
 10
483.3909526986
 20
-301.1663643677
 10
481.7628449653
 20
-299.4983342822
 10
479.8986641724
 20
-297.9148033649
 10
477.8114916481
 20
-296.4268756108
 10
475.5159639555
 20
-295.0449895758
 10
473.028182261
 20
-293.7788386831
 10
470.3655959361
 20
-292.6373040284
 10
467.5468835256
 20
-291.628391747
 10
464.5918132185
 20
-290.7591798375
 10
461.5211143497
 20
-290.0357652707
 10
458.3563272513
 20
-289.4632198899
 10
455.1196481661
 20
-289.0455617081
 10
451.8337823916
 20
-288.7857203128
 10
448.5217763514
 20
-288.6855174769
 10
445.2068608616
 20
-288.7456557538
 10
441.9122891287
 20
-288.9657161967
 10
438.6611681625
 20
-289.3441507548
 10
435.4763059933
 20
-289.8783096454
 10
432.3800371583
 20
-290.5644417348
 10
429.3940844066
 20
-291.3977378767
 10
426.5393881363
 20
-292.3723503017
 10
423.8359740275
 20
-293.4814446997
 10
421.3028042931
 20
-294.7172404714
 10
418.9576481102
 20
-296.0710703187
 10
416.8169550975
 20
-297.533438079
 10
414.8957390818
 20
-299.0940858247
 10
413.2074779176
 20
-300.7420669032
 10
411.7640102592
 20
-302.4658207357
 10
410.5754658385
 20
-304.2532586874
 10
409.6501752434
 20
-306.0918404824
 10
408.9946363325
 20
-307.9686726667
 10
408.6134391612
 20
-309.8705884447
 10
408.5092653226
 20
-311.7842484235
 10
408.6828405327
 20
-313.6962288129
 10
409.1329478014
 20
-315.5931187481
 10
409.8564313833
 20
-317.4616138119
 10
410.8482165345
 20
-319.2886065152
 10
412.101343098
 20
-321.0612832397
 10
413.6070254316
 20
-322.7672090163
 10
415.3547021278
 20
-324.3944170548
 10
417.3321124048
 20
-325.9314954225
 10
419.525387727
 20
-327.3676612251
 10
421.9191439183
 20
-328.6928411548
 10
424.496589658
 20
-329.8977402061
 10
427.2396428778
 20
-330.9739088709
 10
430.1290688098
 20
-331.9137954593
 10
433.1445981125
 20
-332.7108082096
 10
436.2650789949
 20
-333.3593574875
 10
439.4686214375
 20
-333.8548934225
 10
442.7327565603
 20
-334.1939401235
 10
446.034590722
 20
-334.3741207699
 10
449.3509589611
 20
-334.394170157
 10
452.6586041195
 20
-334.2539483825
 10
455.9343230402
 20
-333.9544370442
 10
459.1551417395
 20
-333.4977415219
 10
462.2984629211
 20
-332.8870590423
 10
465.3422437832
 20
-332.126677919
 10
468.2651343128
 20
-331.2219311719
 10
471.0466271048
 20
-330.1791617416
 10
473.6672178819
 20
-329.0056876088
 10
476.1085218922
 20
-327.7097376407
  0
LWPOLYLINE
  5
CA
330
1F
100
AcDbEntity
  8
0
  6
Continuous
 62
     7
370
    25
100
AcDbPolyline
 90
       81
 70
   128
 43
0.0
 10
479.9268999267
 20
-329.9140403601
 10
482.3253615009
 20
-328.4161839053
 10
484.5128593298
 20
-326.814311703
 10
486.4758998364
 20
-325.1182967592
 10
488.2023868752
 20
-323.3385983012
 10
489.6816721107
 20
-321.4861870748
 10
490.9046353602
 20
-319.5724837566
 10
491.8637395816
 20
-317.609287672
 10
492.5530684112
 20
-315.6087034228
 10
492.9683716026
 20
-313.5830629522
 10
493.1070940032
 20
-311.5448571142
 10
492.9683716026
 20
-309.5066512762
 10
492.5530684112
 20
-307.4810108055
 10
491.8637395816
 20
-305.4804265563
 10
490.9046353602
 20
-303.5172304717
 10
489.6816721107
 20
-301.6035271535
 10
488.2023868752
 20
-299.7511159271
 10
486.4758998364
 20
-297.9714174691
 10
484.5128593298
 20
-296.2754025253
 10
482.3253615009
 20
-294.673530323
 10
479.9268999267
 20
-293.1756738682
 10
477.3322553094
 20
-291.7910714735
 10
474.5574306098
 20
-290.5282558567
 10
471.6195282288
 20
-289.3950166939
 10
468.5366660429
 20
-288.3983369414
 10
465.3278480002
 20
-287.5443637522
 10
462.0128574363
 20
-286.838362096
 10
458.6121335971
 20
-286.2846830143
 10
455.1466445397
 20
-285.8867419514
 10
451.6377521309
 20
-285.6469925222
 10
448.1070935089
 20
-285.566909785
 10
444.576434887
 20
-285.6469925222
 10
441.0675424782
 20
-285.8867419514
 10
437.6020534208
 20
-286.2846830143
 10
434.2013295816
 20
-286.838362096
 10
430.8863390176
 20
-287.5443637522
 10
427.677520975
 20
-288.3983369414
 10
424.594658789
 20
-289.3950166939
 10
421.656756408
 20
-290.5282558567
 10
418.8819317084
 20
-291.7910714735
 10
416.2872870911
 20
-293.1756738682
 10
413.8888255169
 20
-294.673530323
 10
411.7013276881
 20
-296.2754025253
 10
409.7382871815
 20
-297.9714174691
 10
408.0118001427
 20
-299.7511159271
 10
406.5325149071
 20
-301.6035271535
 10
405.3095516577
 20
-303.5172304717
 10
404.3504474363
 20
-305.4804265563
 10
403.6611186067
 20
-307.4810108055
 10
403.2458154153
 20
-309.5066512762
 10
403.1070930147
 20
-311.5448571142
 10
403.2458154153
 20
-313.5830629522
 10
403.6611186067
 20
-315.6087034228
 10
404.3504474363
 20
-317.609287672
 10
405.3095516577
 20
-319.5724837566
 10
406.5325149071
 20
-321.4861870748
 10
408.0118001427
 20
-323.3385983012
 10
409.7382871815
 20
-325.1182967592
 10
411.7013276881
 20
-326.814311703
 10
413.8888255169
 20
-328.4161839053
 10
416.2872870911
 20
-329.9140403601
 10
418.8819317084
 20
-331.2986427548
 10
421.656756408
 20
-332.5614583716
 10
424.594658789
 20
-333.6946975344
 10
427.677520975
 20
-334.691377287
 10
430.8863390176
 20
-335.5453504761
 10
434.2013295816
 20
-336.2513521323
 10
437.6020534208
 20
-336.805031214
 10
441.0675424782
 20
-337.2029722769
 10
444.576434887
 20
-337.4427217061
 10
448.1070935089
 20
-337.5228044433
 10
451.6377521309
 20
-337.4427217061
 10
455.1466445397
 20
-337.2029722769
 10
458.6121335971
 20
-336.805031214
 10
462.0128574363
 20
-336.2513521323
 10
465.3278480002
 20
-335.5453504761
 10
468.5366660429
 20
-334.691377287
 10
471.6195282288
 20
-333.6946975344
 10
474.5574306098
 20
-332.5614583716
 10
477.3322553094
 20
-331.2986427548
 10
479.9268999267
 20
-329.9140403601
  0
ENDSEC
  0
SECTION
  2
OBJECTS
  0
DICTIONARY
  5
C
330
0
100
AcDbDictionary
281
     1
  3
ACAD_GROUP
350
D
  3
ACAD_LAYOUT
350
1A
  3
ACAD_MLINESTYLE
350
17
  3
ACAD_PLOTSETTINGS
350
19
  3
ACAD_PLOTSTYLENAME
350
E
  3
ACAD_SCALELIST
350
47
  0
DICTIONARY
  5
D
102
{ACAD_REACTORS
330
C
102
}
330
C
100
AcDbDictionary
281
     1
  0
DICTIONARY
  5
1A
102
{ACAD_REACTORS
330
C
102
}
330
C
100
AcDbDictionary
281
     1
  3
Layout1
350
1E
  3
Layout2
350
26
  3
Model
350
22
  0
DICTIONARY
  5
17
102
{ACAD_REACTORS
330
C
102
}
330
C
100
AcDbDictionary
281
     1
  3
Standard
350
18
  0
DICTIONARY
  5
19
102
{ACAD_REACTORS
330
C
102
}
330
C
100
AcDbDictionary
281
     1
  0
ACDBDICTIONARYWDFLT
  5
E
102
{ACAD_REACTORS
330
C
102
}
330
C
100
AcDbDictionary
281
     1
  3
Normal
350
F
100
AcDbDictionaryWithDefault
340
F
  0
DICTIONARY
  5
47
102
{ACAD_REACTORS
330
C
102
}
330
C
100
AcDbDictionary
281
     1
  3
A0
350
48
  3
A1
350
49
  3
A2
350
4A
  3
A3
350
4B
  3
A4
350
4C
  3
A5
350
4D
  3
A6
350
4E
  3
A7
350
4F
  3
A8
350
50
  3
A9
350
51
  3
B0
350
52
  3
B1
350
53
  3
B2
350
54
  3
B3
350
55
  3
B4
350
56
  3
B5
350
57
  3
B6
350
58
  3
B7
350
59
  3
B8
350
5A
  3
B9
350
5B
  3
C0
350
5C
  3
C1
350
5D
  3
C2
350
5E
  3
C3
350
5F
  3
C4
350
60
  3
C5
350
61
  3
C6
350
62
  3
C7
350
63
  3
C8
350
64
  3
C9
350
65
  3
D0
350
66
  3
D1
350
67
  3
D2
350
68
  0
LAYOUT
  5
1E
102
{ACAD_REACTORS
330
1A
102
}
330
1A
100
AcDbPlotSettings
  1

  2
none_device
  4

  6

 40
0.0
 41
0.0
 42
0.0
 43
0.0
 44
0.0
 45
0.0
 46
0.0
 47
0.0
 48
0.0
 49
0.0
140
0.0
141
0.0
142
1.0
143
1.0
 70
   688
 72
     1
 73
     0
 74
     5
  7

 75
    16
147
1.0
148
0.0
149
0.0
100
AcDbLayout
  1
Layout1
 70
     1
 71
     1
 10
0.0
 20
0.0
 11
420.0
 21
297.0
 12
0.0
 22
0.0
 32
0.0
 14
1.0000000000E+20
 24
1.0000000000E+20
 34
1.0000000000E+20
 15
-1.0000000000E+20
 25
-1.0000000000E+20
 35
-1.0000000000E+20
146
0.0
 13
0.0
 23
0.0
 33
0.0
 16
1.0
 26
0.0
 36
0.0
 17
0.0
 27
1.0
 37
0.0
 76
     0
330
1B
  0
LAYOUT
  5
26
102
{ACAD_REACTORS
330
1A
102
}
330
1A
100
AcDbPlotSettings
  1

  2
none_device
  4

  6

 40
0.0
 41
0.0
 42
0.0
 43
0.0
 44
0.0
 45
0.0
 46
0.0
 47
0.0
 48
0.0
 49
0.0
140
0.0
141
0.0
142
1.0
143
1.0
 70
   688
 72
     1
 73
     0
 74
     5
  7

 75
    16
147
1.0
148
0.0
149
0.0
100
AcDbLayout
  1
Layout2
 70
     1
 71
     2
 10
0.0
 20
0.0
 11
0.0
 21
0.0
 12
0.0
 22
0.0
 32
0.0
 14
0.0
 24
0.0
 34
0.0
 15
0.0
 25
0.0
 35
0.0
146
0.0
 13
0.0
 23
0.0
 33
0.0
 16
1.0
 26
0.0
 36
0.0
 17
0.0
 27
1.0
 37
0.0
 76
     0
330
23
  0
LAYOUT
  5
22
102
{ACAD_REACTORS
330
1A
102
}
330
1A
100
AcDbPlotSettings
  1

  2
none_device
  4
Letter_(8.50_x_11.00_Inches)
  6

 40
6.35
 41
6.35
 42
6.35000508
 43
6.35000508
 44
215.9
 45
279.4
 46
0.0
 47
0.0
 48
0.0
 49
0.0
140
0.0
141
0.0
142
1.0
143
1.0
 70
  1712
 72
     1
 73
     0
 74
     0
  7

 75
     0
147
1.0
148
0.0
149
0.0
100
AcDbLayout
  1
Model
 70
     1
 71
     0
 10
0.0
 20
0.0
 11
279.4
 21
215.9
 12
0.0
 22
0.0
 32
0.0
 14
0.0
 24
0.0
 34
0.0
 15
279.4
 25
215.9
 35
0.0
146
0.0
 13
0.0
 23
0.0
 33
0.0
 16
1.0
 26
0.0
 36
0.0
 17
0.0
 27
1.0
 37
0.0
 76
     0
330
1F
331
29
  0
MLINESTYLE
  5
18
102
{ACAD_REACTORS
330
17
102
}
330
17
100
AcDbMlineStyle
  2
Standard
 70
     0
  3

 62
   256
 51
90.0
 52
90.0
 71
     2
 49
0.5
 62
   256
  6
BYLAYER
 49
-0.5
 62
   256
  6
BYLAYER
  0
ACDBPLACEHOLDER
  5
F
102
{ACAD_REACTORS
330
E
102
}
330
E
  0
SCALE
  5
48
102
{ACAD_REACTORS
330
47
102
}
330
47
100
AcDbScale
 70
     0
300
1:1
140
1.0
141
1.0
290
     1
  0
SCALE
  5
49
102
{ACAD_REACTORS
330
47
102
}
330
47
100
AcDbScale
 70
     0
300
1:2
140
1.0
141
2.0
290
     0
  0
SCALE
  5
4A
102
{ACAD_REACTORS
330
47
102
}
330
47
100
AcDbScale
 70
     0
300
1:4
140
1.0
141
4.0
290
     0
  0
SCALE
  5
4B
102
{ACAD_REACTORS
330
47
102
}
330
47
100
AcDbScale
 70
     0
300
1:5
140
1.0
141
5.0
290
     0
  0
SCALE
  5
4C
102
{ACAD_REACTORS
330
47
102
}
330
47
100
AcDbScale
 70
     0
300
1:8
140
1.0
141
8.0
290
     0
  0
SCALE
  5
4D
102
{ACAD_REACTORS
330
47
102
}
330
47
100
AcDbScale
 70
     0
300
1:10
140
1.0
141
10.0
290
     0
  0
SCALE
  5
4E
102
{ACAD_REACTORS
330
47
102
}
330
47
100
AcDbScale
 70
     0
300
1:16
140
1.0
141
16.0
290
     0
  0
SCALE
  5
4F
102
{ACAD_REACTORS
330
47
102
}
330
47
100
AcDbScale
 70
     0
300
1:20
140
1.0
141
20.0
290
     0
  0
SCALE
  5
50
102
{ACAD_REACTORS
330
47
102
}
330
47
100
AcDbScale
 70
     0
300
1:30
140
1.0
141
30.0
290
     0
  0
SCALE
  5
51
102
{ACAD_REACTORS
330
47
102
}
330
47
100
AcDbScale
 70
     0
300
1:40
140
1.0
141
40.0
290
     0
  0
SCALE
  5
52
102
{ACAD_REACTORS
330
47
102
}
330
47
100
AcDbScale
 70
     0
300
1:50
140
1.0
141
50.0
290
     0
  0
SCALE
  5
53
102
{ACAD_REACTORS
330
47
102
}
330
47
100
AcDbScale
 70
     0
300
1:100
140
1.0
141
100.0
290
     0
  0
SCALE
  5
54
102
{ACAD_REACTORS
330
47
102
}
330
47
100
AcDbScale
 70
     0
300
2:1
140
2.0
141
1.0
290
     0
  0
SCALE
  5
55
102
{ACAD_REACTORS
330
47
102
}
330
47
100
AcDbScale
 70
     0
300
4:1
140
4.0
141
1.0
290
     0
  0
SCALE
  5
56
102
{ACAD_REACTORS
330
47
102
}
330
47
100
AcDbScale
 70
     0
300
8:1
140
8.0
141
1.0
290
     0
  0
SCALE
  5
57
102
{ACAD_REACTORS
330
47
102
}
330
47
100
AcDbScale
 70
     0
300
10:1
140
10.0
141
1.0
290
     0
  0
SCALE
  5
58
102
{ACAD_REACTORS
330
47
102
}
330
47
100
AcDbScale
 70
     0
300
100:1
140
100.0
141
1.0
290
     0
  0
SCALE
  5
59
102
{ACAD_REACTORS
330
47
102
}
330
47
100
AcDbScale
 70
     0
300
1/128" = 1'-0"
140
0.0078125
141
12.0
290
     0
  0
SCALE
  5
5A
102
{ACAD_REACTORS
330
47
102
}
330
47
100
AcDbScale
 70
     0
300
1/64" = 1'-0"
140
0.015625
141
12.0
290
     0
  0
SCALE
  5
5B
102
{ACAD_REACTORS
330
47
102
}
330
47
100
AcDbScale
 70
     0
300
1/32" = 1'-0"
140
0.03125
141
12.0
290
     0
  0
SCALE
  5
5C
102
{ACAD_REACTORS
330
47
102
}
330
47
100
AcDbScale
 70
     0
300
1/16" = 1'-0"
140
0.0625
141
12.0
290
     0
  0
SCALE
  5
5D
102
{ACAD_REACTORS
330
47
102
}
330
47
100
AcDbScale
 70
     0
300
3/32" = 1'-0"
140
0.09375
141
12.0
290
     0
  0
SCALE
  5
5E
102
{ACAD_REACTORS
330
47
102
}
330
47
100
AcDbScale
 70
     0
300
1/8" = 1'-0"
140
0.125
141
12.0
290
     0
  0
SCALE
  5
5F
102
{ACAD_REACTORS
330
47
102
}
330
47
100
AcDbScale
 70
     0
300
3/16" = 1'-0"
140
0.1875
141
12.0
290
     0
  0
SCALE
  5
60
102
{ACAD_REACTORS
330
47
102
}
330
47
100
AcDbScale
 70
     0
300
1/4" = 1'-0"
140
0.25
141
12.0
290
     0
  0
SCALE
  5
61
102
{ACAD_REACTORS
330
47
102
}
330
47
100
AcDbScale
 70
     0
300
3/8" = 1'-0"
140
0.375
141
12.0
290
     0
  0
SCALE
  5
62
102
{ACAD_REACTORS
330
47
102
}
330
47
100
AcDbScale
 70
     0
300
1/2" = 1'-0"
140
0.5
141
12.0
290
     0
  0
SCALE
  5
63
102
{ACAD_REACTORS
330
47
102
}
330
47
100
AcDbScale
 70
     0
300
3/4" = 1'-0"
140
0.75
141
12.0
290
     0
  0
SCALE
  5
64
102
{ACAD_REACTORS
330
47
102
}
330
47
100
AcDbScale
 70
     0
300
1" = 1'-0"
140
1.0
141
12.0
290
     0
  0
SCALE
  5
65
102
{ACAD_REACTORS
330
47
102
}
330
47
100
AcDbScale
 70
     0
300
1-1/2" = 1'-0"
140
1.5
141
12.0
290
     0
  0
SCALE
  5
66
102
{ACAD_REACTORS
330
47
102
}
330
47
100
AcDbScale
 70
     0
300
3" = 1'-0"
140
3.0
141
12.0
290
     0
  0
SCALE
  5
67
102
{ACAD_REACTORS
330
47
102
}
330
47
100
AcDbScale
 70
     0
300
6" = 1'-0"
140
6.0
141
12.0
290
     0
  0
SCALE
  5
68
102
{ACAD_REACTORS
330
47
102
}
330
47
100
AcDbScale
 70
     0
300
1'-0" = 1'-0"
140
12.0
141
12.0
290
     0
  0
ENDSEC
  0
EOF
